More Than Words

Tekan gitar pada tanggal 2 dan 4 beats ukuran masing-masing dengan keempat jari kanan
masing-masing tangan menghitung dua strip untuk satu catatan kedelapan

 --3---3---3---3- | --3-----3-3----- | --0-----3------- | --0---2---3---3- |
 --3---3---3---3- | --3-------3---1- | --1-------1---1- | --1---3---3---3- |
 ---------------- | ---------------- | ---------------- | ---------------- |
 ---------------- | ---------------- | ---------------- | --------0------- |
 ------2-------3- | ------3-3-3---0- | ------0-0-0---3- | ---------------- |
 3--------------- | ---------------- | ---------------- | --------------3- |
     ^tap    ^tap       ^tap    ^tap (get the idea?)
 
 --3---3---3---3- | --3-----3-3----- | --0-----3------- | --0---2---3---3- |
 --3---3---3---3- | --3-------3---1- | --1-------1---1- | --1---3-------3- |
 ---------------- | ---------------- | ---------------- | ---------------- |
 ---------------- | ---------------- | ---------------- | ---------------- |
 ------2-------3- | ------3-3-3---0- | ------0-0-0---3- | --------0------- |
 ---------------- | ---------------- | ---------------- | --------------3- |

baris kedua adalah apa yang I’m gonna call the “intro”.
bermain sekali untuk intro.
bermain lagi untuk bagian pertama dari ayat
“Sayin ‘I love you’ is not the words I want to hear from you

It’s not that I want you, not to say but if you only knew” pada “tahu”, bukannya bermain catatan delapan terakhir di garis pdf, Anda bermain

  0- |  instead of    3- |
  -- |                3- |
  -- |                -- |
  -- |               -- |
  -- |              -- |
  0- |              3- |

bagian selanjutnya dari ayat:

--0------------- | --------3-0----- | 2-----2---2---3- | --3------------- |
--0---0---0----- | --1-----1-1----- | 3-----3---3---3- | --3---3---3---0- |
------0---0----- | --0------------- | ---------------- | ------2---2---0- |
---------------- | ---------------- | 0-----0---0----- | ---------------- |
--------------0- | --------0-0---0- | ---------------- | ---------------- |
------0---0----- | ---------------- | --------------3- | --3---2---2---0- |
 
--0------------- | --------3-3----- | ------0---2---1- | --1---1---1---0- |
--0---0---0---1- | --1-----1-1----- | ------3---3----- | --0---0---0---1- |
------0---0---0- | --0------------- | ---------------- | ---------------- |
---------------- | ---------------- | 0-----0--------- | ---------------- |
------2---2---0- | --0---0-0-0---0- | ---------------- | ------2---2---3- |
---------------- | ---------------- | --------------3- | --3------------- |
 
--------0-0----- | ---------------- | --3-----3-3---3- | --3---3---3----- |
--------1-1---4- | --4-----4-4---2- | --3-----3-3---3- | --3---3---3----- |
--------------0- | --0-----0-0---0- | ---------------- | ---------------- |
---------------- | ---------------- | ---------------- | ------2--------- |
------3-3-3---3- | --3-----3-3----- | ---------------- | --2-------2----- |
---------------- | --------------3- | ------3-3-3-2-0- | ---------------- |
0 (strum)             | 2 (strum)             |
1                     | 1                           |
0                   | 2                   |
2                   | 0                   |   <---- 1 waktu melalui
0                   | x                   |
x                   | x                   |
I'd      al  -     rea  - dy        |  <-- lyrics termasuk supaya kau tahu

                                             di mana kita dalam lagu
0                 | 2               4          |
1                 | 1       3          |
0                 | 2       4          |
2                 | 0       3          |    <--- kedua waktu melalui
0                 | x       x          |
x                 | x       x          |

chorus.....
--3---3---3----- | --3---3---3----- | 2---0---0-2----- | ----------2----- |
--3---3---3----- | --3---3---3----- | 3-------3-----0- | ----------3---1- |
---------------- | ---------------- | ---------------- | --------------0- |
---------------- | ---------------- | ---------------- | --------4-----2- |
------2--------- | ------2--------- | ---------------- | --2---2-------3- |
3-------------3- | --------------0- | 2-------2-----0- | ---------------- |
 
---------------- | ---------------- | ---------------- | --2-------2---3- |
--1-----1-1---1- | --1---1---1---1- | --1-----------3- | --3-------3---3- |
--0-----0-0---0- | --0---0---0---0- | --0-----------2- | ------2--------- |
--2------------- | --------------2- | ----2---------0- | ------0--------- |
--------3-3---3- | --3---3---3---0- | ----0-0-0-0----- | ---------------- |
---------------- | ---------------- | ---------------- | --------------3- |
 
--3---3---3----- | --3---3---3----- | 2---0---0-2----- | ----------2----- |
--3---3---3----- | --3---3---3----- | 3-------3-----0- | ----------3---1- |
---------------- | ---------------- | ---------------- | --------------0- |
---------------- | ---------------- | ---------------- | ---------------- |
------2--------- | ------2--------- | ---------------- | --2---2-4-----3- |
--------------3- | ---------------- | 2-------2-----0- | ---------------- |
 
---------------- | ---------------- | --------3------- | 2 (strum)      |
--1-----1-1---1- | --1---1---1---1- | --1-----1-1----- | 1              |
--0-----0-0---0- | --0---0---0---0- | --0-----0-0----- | 2              |
---------------- | ---------------- | ---------------- | 0              |
--3-----3-3---3- | --3---3---2---0- | ------0-0-0----- | x              |
---------------- | ---------------- | ---------------- |                          |
 
2 (strum)           |
1                 |
2                 |
0                 |
x                 |
x                 |               chorus akhir
setelah ayat pertama, bermain intro baris sampai akord Am7 (akhir keenam


mengukur) .. tidak bermain tab terakhir ukuran keenam baik .. bukan ...
memetik dua akord sebagai mengarah ke ayat Tabel ...
0 (strum)                  | 2 (strum)         |
1                 | 1 (strum)         |
0                 | 2                 |
2                 | 0                 |
0                 | x                 |
x                  | x                 |
 
(Ulangi ayat di atas untuk kedua hingga akhir chorus)

ulangi garis intro dua kali(for the la di da's...)
--------3------- | --------0------- | --------0------- | ----------0----- |
----3-----3----- | ----3-----3----- | ----3-----3----- | --------0---0--- |
--0---0-----0--- | --2---2-----2--- | --2---2-----2--- | ------2-------2- |
---------------- | ---------------- | ---------------- | ----2----------- | 
---------------- | ---------------- | ---------------- | --2------------- |
3-------------3- | 2-------------2- | 1-------------1- | 0--------------- |
 
--------0------- | 
------1---1----- |
----0-------0--- |
--2-----------2- |
0--------------- |
---------------- | sekarang tiba bagian rumit ....
 
 
 
 
 
 
 
 
 
 
 
(Mulai instrumental)






yang (+) di atas catatan menunjukkan tekan keras dengan tangan .. ini memetik
pada catatan atas "tinggi" frets. sisa dari catatan berikut pound
dengan tangan pickinhg yang melantur. memetik catatan pertama dan sisanya pound
dengan tangan kiri.

8 ..... 16 .......................................
-------- 2--- 3--- 5--- 17-- 5--- 3--- 2--- 3--- 5---
-------- ---- ---- ---- ---- ---- ---- ---- ---- ----
-------- ---- ---- ---- ---- ---- ---- ---- ---- ----
-------- ---- ---- ---- ---- ---- ---- ---- ---- ----
0------- ---- ---- ---- ---- ---- ---- ---- ---- ----
-------- ---- ---- ---- ---- ---- ---- ---- ---- ----
32 catatan (semua dari mereka sampai headstock ambil) dimainkan di senar e tinggi
+              +              +              +              +
15 5-3-2-3-5- 17 5-3-2-3-5- 15 5-3-2-3-5- 14 5-3-2-3-5- 15 5-3-2-3-5-
 
+              +              +              +              +
14 5-3-2-3-5- 12 5-3-2-3-5- 8- 5-3-2-3-5- 7- 5-3-2-3-5- 7- 5-2-0-2-0-
 
3-0-3-0- ---- ------ ---- ----
-------- 2-0- ------ ---- ----
-------- ---- 0-2-0- ---- ----     kemudian ambil headstock dan bergetar untuk

-------- ---- ------ 2-0- ----         tremolo (menggunakan chord Em)  
-------- ---- ------ ---- 2-0-
(Akhir instrumental)
--------3------- | ----3-------3--- | ----3----------- | 0-3-5-3--------- |
------3---3----- | 3-----3-3-----3- | 3-----3-------1- | ---------------- |
----0-------0--- | --0------------- | ------------0--- | ---------------- |
--0------------- | ----------0----- | --0-------2----- | ---------------- |
--------------2- | 3-------2------- | 1-------0------- | ---------------- |
3--------------- | ---------------- | ---------------- | ---------------- |
 
3 (strum)                  |
3                 |
0                 |
0                 |
x                 |
3                 |
lyrics:
verse 1
Sayin "I love you" is not the words I want to hear from you
It's not that I want you not to say but if you only knew
how easy it would be to show me how you feel
more than words is all you have to do to make it real
then you wouldn't have to say that you love me
'cause I'd already know
 
chorus
What would you do
if my heart was torn in two?
more than words to show you feel
that your love for me is real
What would you say
if I took those words away?
Then you couldn't make things new
just by sayin' "I love you"
la di da da da di da da di da..etc...
verse 2
Now that I have tried to talk to you and make you understand
all you have to do is close your eyes and just reach out your hands
and touch me, hold me close don't ever let me go
more than words is all i ever needed you to show
then you wouldn't have to say
that you love me 'cause I'd already know.

 
 

0 Responses to “klassic”



  1. Tinggalkan sebuah Komentar

Tinggalkan Balasan

Isikan data di bawah atau klik salah satu ikon untuk log in:

Logo WordPress.com

You are commenting using your WordPress.com account. Logout / Ubah )

Gambar Twitter

You are commenting using your Twitter account. Logout / Ubah )

Foto Facebook

You are commenting using your Facebook account. Logout / Ubah )

Foto Google+

You are commenting using your Google+ account. Logout / Ubah )

Connecting to %s




menu

my face

pranoto mongso

Desember 2016
S S R K J S M
« Sep    
 1234
567891011
12131415161718
19202122232425
262728293031  

Blog Stats

  • 39,301 hits

file

Masukkan alamat surel Anda untuk berlangganan blog ini dan menerima pemberitahuan tulisan-tulisan baru melalui email.

Bergabunglah dengan 4 pengikut lainnya


%d blogger menyukai ini: